  0
SECTION
  2
HEADER
  9
$ACADVER
  1
AC1009
  9
$INSBASE
 10
0.0
 20
0.0
 30
0.0
  9
$EXTMIN
 10
19.992676689281101
 20
4.9685681576008838
 30
-0.0015258207003583
  9
$EXTMAX
 10
380.01159756445759
 20
540.0164807494923
 30
0.0000000349246037
  9
$LIMMIN
 10
0.0
 20
0.0
  9
$LIMMAX
 10
0.0
 20
0.0
  9
$ORTHOMODE
 70
     0
  9
$REGENMODE
 70
     1
  9
$FILLMODE
 70
     1
  9
$QTEXTMODE
 70
     0
  9
$MIRRTEXT
 70
     1
  9
$DRAGMODE
 70
     2
  9
$LTSCALE
 40
10.16
  9
$OSMODE
 70
   231
  9
$ATTMODE
 70
     1
  9
$TEXTSIZE
 40
0.0
  9
$TRACEWID
 40
1.0
  9
$TEXTSTYLE
  7
STANDARD
  9
$CLAYER
  8
DATA
  9
$CELTYPE
  6
BYLAYER
  9
$CECOLOR
 62
   256
  9
$DIMSCALE
 40
1.0
  9
$DIMASZ
 40
0.18
  9
$DIMEXO
 40
0.0625
  9
$DIMDLI
 40
0.38
  9
$DIMRND
 40
0.0
  9
$DIMDLE
 40
0.0
  9
$DIMEXE
 40
0.18
  9
$DIMTP
 40
0.0
  9
$DIMTM
 40
0.0
  9
$DIMTXT
 40
0.18
  9
$DIMCEN
 40
0.09
  9
$DIMTSZ
 40
0.0
  9
$DIMTOL
 70
     0
  9
$DIMLIM
 70
     0
  9
$DIMTIH
 70
     1
  9
$DIMTOH
 70
     1
  9
$DIMSE1
 70
     0
  9
$DIMSE2
 70
     0
  9
$DIMTAD
 70
     0
  9
$DIMZIN
 70
     0
  9
$DIMBLK
  1

  9
$DIMASO
 70
     1
  9
$DIMSHO
 70
     1
  9
$DIMPOST
  1

  9
$DIMAPOST
  1

  9
$DIMALT
 70
     0
  9
$DIMALTD
 70
     2
  9
$DIMALTF
 40
25.399999999999999
  9
$DIMLFAC
 40
1.0
  9
$DIMTOFL
 70
     0
  9
$DIMTVP
 40
0.0
  9
$DIMTIX
 70
     0
  9
$DIMSOXD
 70
     0
  9
$DIMSAH
 70
     0
  9
$DIMBLK1
  1

  9
$DIMBLK2
  1

  9
$DIMSTYLE
  2
STANDARD
  9
$DIMCLRD
 70
     0
  9
$DIMCLRE
 70
     0
  9
$DIMCLRT
 70
     0
  9
$DIMTFAC
 40
1.0
  9
$DIMGAP
 40
0.09
  9
$LUNITS
 70
     2
  9
$LUPREC
 70
     4
  9
$SKETCHINC
 40
0.1
  9
$FILLETRAD
 40
0.0
  9
$AUNITS
 70
     0
  9
$AUPREC
 70
     0
  9
$MENU
  1
acad
  9
$ELEVATION
 40
0.0
  9
$PELEVATION
 40
0.0
  9
$THICKNESS
 40
0.0
  9
$LIMCHECK
 70
     0
  9
$BLIPMODE
 70
     0
  9
$CHAMFERA
 40
0.0
  9
$CHAMFERB
 40
0.0
  9
$SKPOLY
 70
     0
  9
$TDCREATE
 40
2454998.5499768518
  9
$TDUPDATE
 40
2454998.5578128011
  9
$TDINDWG
 40
0.0002769792
  9
$TDUSRTIMER
 40
0.0002769792
  9
$USRTIMER
 70
     1
  9
$ANGBASE
 50
0.0
  9
$ANGDIR
 70
     0
  9
$PDMODE
 70
     1
  9
$PDSIZE
 40
-2.0
  9
$PLINEWID
 40
0.0
  9
$COORDS
 70
     1
  9
$SPLFRAME
 70
     0
  9
$SPLINETYPE
 70
     6
  9
$SPLINESEGS
 70
     8
  9
$ATTDIA
 70
     0
  9
$ATTREQ
 70
     1
  9
$HANDLING
 70
     1
  9
$HANDSEED
  5
20F
  9
$SURFTAB1
 70
     6
  9
$SURFTAB2
 70
     6
  9
$SURFTYPE
 70
     6
  9
$SURFU
 70
     6
  9
$SURFV
 70
     6
  9
$UCSNAME
  2

  9
$UCSORG
 10
0.0
 20
0.0
 30
0.0
  9
$UCSXDIR
 10
1.0
 20
0.0
 30
0.0
  9
$UCSYDIR
 10
0.0
 20
1.0
 30
0.0
  9
$PUCSNAME
  2

  9
$PUCSORG
 10
0.0
 20
0.0
 30
0.0
  9
$PUCSXDIR
 10
1.0
 20
0.0
 30
0.0
  9
$PUCSYDIR
 10
0.0
 20
1.0
 30
0.0
  9
$USERI1
 70
     0
  9
$USERI2
 70
     0
  9
$USERI3
 70
     0
  9
$USERI4
 70
     0
  9
$USERI5
 70
     0
  9
$USERR1
 40
0.0
  9
$USERR2
 40
0.0
  9
$USERR3
 40
0.0
  9
$USERR4
 40
0.0
  9
$USERR5
 40
0.0
  9
$WORLDVIEW
 70
     1
  9
$SHADEDGE
 70
     3
  9
$SHADEDIF
 70
    70
  9
$TILEMODE
 70
     1
  9
$MAXACTVP
 70
    64
  9
$PLIMCHECK
 70
     0
  9
$PEXTMIN
 10
1.0000000000000000E+020
 20
1.0000000000000000E+020
 30
1.0000000000000000E+020
  9
$PEXTMAX
 10
-1.0000000000000000E+020
 20
-1.0000000000000000E+020
 30
-1.0000000000000000E+020
  9
$PLIMMIN
 10
0.0
 20
0.0
  9
$PLIMMAX
 10
12.0
 20
9.0
  9
$UNITMODE
 70
     0
  9
$VISRETAIN
 70
     0
  9
$PLINEGEN
 70
     1
  9
$PSLTSCALE
 70
     0
  0
ENDSEC
  0
SECTION
  2
TABLES
  0
TABLE
  2
VPORT
 70
     1
  0
VPORT
  2
*ACTIVE
 70
     0
 10
0.0
 20
0.0
 11
1.0
 21
1.0
 12
200.00213712686929
 22
272.49252445354659
 13
0.0
 23
0.0
 14
1.0
 24
1.0
 15
0.0
 25
0.0
 16
0.0
 26
0.0
 36
1.0
 17
0.0
 27
0.0
 37
0.0
 40
538.98691562937768
 41
1.9619164619164611
 42
50.0
 43
0.0
 44
0.0
 50
0.0
 51
0.0
 71
     0
 72
  2000
 73
     1
 74
     1
 75
     0
 76
     0
 77
     0
 78
     0
  0
ENDTAB
  0
TABLE
  2
LTYPE
 70
    11
  0
LTYPE
  2
CONTINUOUS
 70
     0
  3
Solid line
 72
    65
 73
     0
 40
0.0
  0
LTYPE
  2
STYLE_01
 70
     0
  3

 72
    65
 73
     2
 40
0.4166412353515625
 49
0.208282470703125
 49
-0.2083587646484375
  0
ENDTAB
  0
TABLE
  2
LAYER
 70
     6
  0
LAYER
  2
0
 70
     0
 62
     7
  6
CONTINUOUS
  0
LAYER
  2
DATA
 70
     0
 62
     7
  6
CONTINUOUS
  0
LAYER
  2
HIBINO-BASE
 70
     0
 62
     7
  6
CONTINUOUS
  0
LAYER
  2
SPEC
 70
     0
 62
     7
  6
CONTINUOUS
  0
LAYER
  2
DIMNSIONS
 70
     0
 62
     7
  6
CONTINUOUS
  0
ENDTAB
  0
TABLE
  2
STYLE
 70
     3
  0
STYLE
  2
STANDARD
 70
     0
 40
0.0
 41
1.0
 50
0.0
 71
     0
 42
0.0
  3
txt
  4
BIGFONT.SHX
  0
ENDTAB
  0
TABLE
  2
VIEW
 70
     0
  0
ENDTAB
  0
TABLE
  2
UCS
 70
     0
  0
ENDTAB
  0
TABLE
  2
APPID
 70
     3
  0
APPID
  2
ACAD
 70
     0
  0
APPID
  2
ACADANNOTATIVE
 70
     0
  0
APPID
  2
ACAD_MLEADERVER
 70
     0
  0
ENDTAB
  0
TABLE
  2
DIMSTYLE
 70
     2
  0
DIMSTYLE
  2
STANDARD
 70
     0
  3

  4

  5

  6

  7

 40
1.0
 41
0.18
 42
0.0625
 43
0.38
 44
0.18
 45
0.0
 46
0.0
 47
0.0
 48
0.0
140
0.18
141
0.09
142
0.0
143
25.399999999999999
144
1.0
145
0.0
146
1.0
147
0.09
 71
     0
 72
     0
 73
     1
 74
     1
 75
     0
 76
     0
 77
     0
 78
     0
170
     0
171
     2
172
     0
173
     0
174
     0
175
     0
176
     0
177
     0
178
     0
  0
ENDTAB
  0
ENDSEC
  0
SECTION
  2
BLOCKS
  0
BLOCK
  8
0
  2
$MODEL_SPACE
 70
     0
 10
0.0
 20
0.0
 30
0.0
  3
$MODEL_SPACE
  1

  0
ENDBLK
  5
1A5
  8
0
  0
BLOCK
 67
     1
  8
0
  2
$PAPER_SPACE
 70
     0
 10
0.0
 20
0.0
 30
0.0
  3
$PAPER_SPACE
  1

  0
ENDBLK
  5
1A1
 67
     1
  8
0
  0
ENDSEC
  0
SECTION
  2
ENTITIES
  0
LINE
  5
2D
  8
HIBINO-BASE
  6
CONTINUOUS
 62
     7
 10
20.0
 20
540.0
 30
0.0
 11
380.0
 21
540.0
 31
0.0
  0
LINE
  5
2E
  8
HIBINO-BASE
  6
CONTINUOUS
 62
     7
 10
380.0
 20
20.0
 30
0.0
 11
20.0
 21
20.0
 31
0.0
  0
LINE
  5
2F
  8
HIBINO-BASE
  6
CONTINUOUS
 62
     7
 10
20.0
 20
20.0
 30
0.0
 11
20.0
 21
540.0
 31
0.0
  0
TEXT
  5
30
  8
HIBINO-BASE
 62
     7
 10
34.368000000000002
 20
7.3410888888889669
 30
0.0
 40
7.0583116319444441
  1
Hibino Corporation
 41
0.7
 11
34.368000000000002
 21
14.39940052083341
 31
0.0
 73
     3
  0
LINE
  5
31
  8
HIBINO-BASE
  6
CONTINUOUS
 62
     7
 10
380.0
 20
540.0
 30
0.0
 11
380.0
 21
20.0
 31
0.0
  0
LINE
  5
32
  8
HIBINO-BASE
  6
CONTINUOUS
 62
     7
 10
200.0
 20
65.000000000000014
 30
0.0
 11
380.0
 21
65.000000000000014
 31
0.0
  0
LINE
  5
33
  8
HIBINO-BASE
  6
CONTINUOUS
 62
     7
 10
200.0
 20
20.0
 30
0.0
 11
200.0
 21
65.000000000000014
 31
0.0
  0
TEXT
  5
34
  8
HIBINO-BASE
 62
     7
 10
201.80000000000001
 20
59.982613333333347
 30
0.0
 40
3.2576822916666659
  1
NOTE
 41
0.7
 11
201.80000000000001
 21
63.240295625000009
 31
0.0
 73
     3
  0
LINE
  5
35
  8
HIBINO-BASE
  6
CONTINUOUS
 62
     7
 10
270.0
 20
20.0
 30
0.0
 11
270.0
 21
65.000000000000014
 31
0.0
  0
TEXT
  5
36
  8
HIBINO-BASE
 62
     7
 10
271.7999999999999
 20
59.982613333333347
 30
0.0
 40
3.2576822916666659
  1
TITLE
 41
0.7
 11
271.7999999999999
 21
63.240295625000009
 31
0.0
 73
     3
  0
TEXT
  5
37
  8
HIBINO-BASE
 62
     7
 10
300.13677999999987
 20
7.3410888888889669
 30
0.0
 40
7.0583116319444441
  1
ヒビノ株式会社
 41
0.7
 11
300.13677999999987
 21
14.39940052083341
 31
0.0
 73
     3
  0
LINE
  5
38
  8
HIBINO-BASE
  6
CONTINUOUS
 62
     7
 10
200.0
 20
40.000000000000021
 30
0.0
 11
380.0
 21
40.000000000000021
 31
0.0
  0
TEXT
  5
39
  8
HIBINO-BASE
 62
     7
 10
296.7999999999999
 20
35.095253333333353
 30
0.0
 40
3.2576822916666659
  1
DRAWN
 41
0.7
 11
296.7999999999999
 21
38.352935625000022
 31
0.0
 73
     3
  0
TEXT
  5
3A
  8
HIBINO-BASE
 62
     7
 10
246.7999999999999
 20
35.095253333333353
 30
0.0
 40
3.2576822916666659
  1
DATE
 41
0.7
 11
246.7999999999999
 21
38.352935625000022
 31
0.0
 73
     3
  0
TEXT
  5
3B
  8
HIBINO-BASE
 62
     7
 10
226.80000000000001
 20
35.095253333333353
 30
0.0
 40
3.2576822916666659
  1
SCALE
 41
0.7
 11
226.80000000000001
 21
38.352935625000022
 31
0.0
 73
     3
  0
TEXT
  5
3C
  8
HIBINO-BASE
 62
     7
 10
271.7999999999999
 20
35.095253333333353
 30
0.0
 40
3.2576822916666659
  1
DESIGN
 41
0.7
 11
271.7999999999999
 21
38.352935625000022
 31
0.0
 73
     3
  0
TEXT
  5
3D
  8
HIBINO-BASE
 62
     7
 10
346.7999999999999
 20
35.095253333333353
 30
0.0
 40
3.2576822916666659
  1
DRAWING NO.
 41
0.7
 11
346.7999999999999
 21
38.352935625000022
 31
0.0
 73
     3
  0
TEXT
  5
3E
  8
HIBINO-BASE
 62
     7
 10
321.7999999999999
 20
35.095253333333353
 30
0.0
 40
3.2576822916666659
  1
CHECK
 41
0.7
 11
321.7999999999999
 21
38.352935625000022
 31
0.0
 73
     3
  0
LINE
  5
3F
  8
HIBINO-BASE
  6
CONTINUOUS
 62
     7
 10
228.75
 20
22.5
 30
0.0
 11
236.25
 21
30.000000000000028
 31
0.0
  0
TEXT
  5
40
  8
HIBINO-BASE
 62
     7
 10
227.5
 20
27.782113333333349
 30
0.0
 40
3.2576822916666659
  1
1
 41
0.7
 11
227.5
 21
31.039795625000011
 31
0.0
 73
     3
  0
LINE
  5
41
  8
HIBINO-BASE
  6
CONTINUOUS
 62
     7
 10
225.0
 20
20.0
 30
0.0
 11
225.0
 21
40.000000000000021
 31
0.0
  0
LINE
  5
42
  8
HIBINO-BASE
  6
CONTINUOUS
 62
     7
 10
245.0
 20
20.0
 30
0.0
 11
245.0
 21
40.000000000000021
 31
0.0
  0
LINE
  5
43
  8
HIBINO-BASE
  6
CONTINUOUS
 62
     7
 10
294.99999999999989
 20
40.000000000000021
 30
0.0
 11
294.99999999999989
 21
20.0
 31
0.0
  0
LINE
  5
44
  8
HIBINO-BASE
  6
CONTINUOUS
 62
     7
 10
345.0
 20
40.000000000000021
 30
0.0
 11
345.0
 21
20.0
 31
0.0
  0
LINE
  5
45
  8
HIBINO-BASE
  6
CONTINUOUS
 62
     7
 10
319.99999999999989
 20
20.0
 30
0.0
 11
319.99999999999989
 21
40.000000000000021
 31
0.0
  0
TEXT
  5
46
  8
HIBINO-BASE
 62
     7
 10
246.71307999999999
 20
25.727293333333339
 30
0.0
 40
3.2576822916666659
  1
'09.03.
 41
0.7
 11
246.71307999999999
 21
28.984975625000011
 31
0.0
 73
     3
  0
TEXT
  5
47
  8
HIBINO-BASE
 62
     7
 10
235.0
 20
24.032113333333349
 30
0.0
 40
3.2576822916666659
  1
2
 41
0.7
 11
235.0
 21
27.289795625000011
 31
0.0
 73
     3
  0
TEXT
  5
48
  8
HIBINO-BASE
 62
     7
 10
298.01162002206922
 20
25.727293333333339
 30
0.0
 40
3.2576822916666659
  1
N.Sasaki
 41
0.7
 11
298.01162002206922
 21
28.984975625000011
 31
0.0
 73
     3
  0
TEXT
  5
49
  8
HIBINO-BASE
 62
     7
 10
207.76666666666671
 20
23.95200000000003
 30
0.0
 40
6.5153645833333318
  1
A4
 41
0.7
 11
207.76666666666671
 21
30.467364583333371
 31
0.0
 73
     3
  0
TEXT
  5
4A
  8
HIBINO-BASE
 62
     7
 10
201.9166666666666
 20
34.761090000000017
 30
0.0
 40
3.2576822916666659
  1
PAPER SIZE
 41
0.7
 11
201.9166666666666
 21
38.018772291666693
 31
0.0
 73
     3
  0
LINE
  5
4B
  8
SPEC
  6
CONTINUOUS
 62
     7
 10
35.0
 20
520.0
 30
0.0
 11
330.0
 21
520.0
 31
0.0
  0
LINE
  5
4C
  8
SPEC
  6
CONTINUOUS
 62
     7
 10
35.0
 20
512.5
 30
0.0
 11
330.0
 21
512.5
 31
0.0
  0
LINE
  5
4D
  8
SPEC
  6
CONTINUOUS
 62
     7
 10
35.0
 20
482.5
 30
0.0
 11
330.0
 21
482.5
 31
0.0
  0
LINE
  5
4E
  8
SPEC
  6
CONTINUOUS
 62
     7
 10
35.0
 20
490.0
 30
0.0
 11
330.0
 21
490.0
 31
0.0
  0
LINE
  5
4F
  8
SPEC
  6
CONTINUOUS
 62
     7
 10
35.0
 20
497.5
 30
0.0
 11
330.0
 21
497.5
 31
0.0
  0
LINE
  5
50
  8
SPEC
  6
CONTINUOUS
 62
     7
 10
35.0
 20
475.0
 30
0.0
 11
330.0
 21
475.0
 31
0.0
  0
LINE
  5
51
  8
SPEC
  6
CONTINUOUS
 62
     7
 10
35.0
 20
460.0
 30
0.0
 11
330.0
 21
460.0
 31
0.0
  0
LINE
  5
52
  8
SPEC
  6
CONTINUOUS
 62
     7
 10
35.0
 20
467.49999999999989
 30
0.0
 11
330.0
 21
467.49999999999989
 31
0.0
  0
LINE
  5
53
  8
SPEC
  6
CONTINUOUS
 62
     7
 10
35.0
 20
452.5
 30
0.0
 11
330.0
 21
452.5
 31
0.0
  0
LINE
  5
54
  8
SPEC
  6
CONTINUOUS
 62
     7
 10
35.0
 20
445.0
 30
0.0
 11
330.0
 21
445.0
 31
0.0
  0
LINE
  5
55
  8
SPEC
  6
CONTINUOUS
 62
     7
 10
35.0
 20
505.0
 30
0.0
 11
330.0
 21
505.0
 31
0.0
  0
TEXT
  5
56
  8
SPEC
 62
     7
 10
101.44604914044019
 20
514.37079460518885
 30
0.0
 40
3.8006293402777769
  1
コンデンサー型 
 41
0.7
 11
101.44604914044019
 21
518.17142394546659
 31
0.0
 73
     3
  0
LINE
  5
57
  8
SPEC
  6
CONTINUOUS
 62
     7
 10
35.0
 20
430.0
 30
0.0
 11
330.0
 21
430.0
 31
0.0
  0
TEXT
  5
58
  8
SPEC
 62
     7
 10
37.5
 20
522.78653999999995
 30
0.0
 40
4.8865234375000002
  1
仕様
 41
0.7
 11
37.5
 21
527.67306343749999
 31
0.0
 73
     3
  0
LINE
  5
59
  8
SPEC
  6
CONTINUOUS
 62
     7
 10
100.0
 20
520.0
 30
0.0
 11
100.0
 21
415.0
 31
0.0
  0
TEXT
  5
5A
  8
SPEC
 62
     7
 10
101.3144264896363
 20
447.06140906591878
 30
0.0
 40
3.8006293402777769
  1
ファンタム DC9～52V(48V推奨)2mA 以下
 41
0.7
 11
101.3144264896363
 21
450.86203840619652
 31
0.0
 73
     3
  0
TEXT
  5
5B
  8
SPEC
 62
     7
 10
101.91751984833699
 20
454.31087525222961
 30
0.0
 40
3.8006293402777769
  1
200\U+03A9以下
 41
0.7
 11
101.91751984833699
 21
458.1115045925074
 31
0.0
 73
     3
  0
TEXT
  5
5C
  8
SPEC
 62
     7
 10
101.8
 20
424.51493030689812
 30
0.0
 40
3.8006293402777769
  1
約130g
 41
0.7
 11
101.8
 21
428.31555964717592
 31
0.0
 73
     3
  0
TEXT
  5
5D
  8
SPEC
 62
     7
 10
36.906455737389962
 20
484.2887470303354
 30
0.0
 40
3.8006293402777769
  1
最大音圧レベル
 41
0.7
 11
36.906455737389962
 21
488.08937637061319
 31
0.0
 73
     3
  0
TEXT
  5
5E
  8
SPEC
 62
     7
 10
36.799999999999983
 20
514.19721280052727
 30
0.0
 40
3.8006293402777769
  1
形式
 41
0.7
 11
36.799999999999983
 21
517.99784214080501
 31
0.0
 73
     3
  0
TEXT
  5
5F
  8
SPEC
 62
     7
 10
36.365343938736743
 20
439.58951999159387
 30
0.0
 40
3.8006293402777769
  1
コネクター
 41
0.7
 11
36.365343938736743
 21
443.39014933187173
 31
0.0
 73
     3
  0
TEXT
  5
60
  8
SPEC
 62
     7
 10
36.879590629652881
 20
469.39419807416709
 30
0.0
 40
3.8006293402777769
  1
パッド
 41
0.7
 11
36.879590629652881
 21
473.19482741444489
 31
0.0
 73
     3
  0
TEXT
  5
61
  8
SPEC
 62
     7
 10
36.146618320284382
 20
461.73035149332611
 30
0.0
 40
3.8006293402777769
  1
ローカットフィルター
 41
0.7
 11
36.146618320284382
 21
465.53098083360391
 31
0.0
 73
     3
  0
TEXT
  5
62
  8
SPEC
 62
     7
 10
36.71990623091088
 20
491.73602309373382
 30
0.0
 40
3.8006293402777769
  1
開回路感度
 41
0.7
 11
36.71990623091088
 21
495.5366524340115
 31
0.0
 73
     3
  0
TEXT
  5
63
  8
SPEC
 62
     7
 10
36.826572039140487
 20
476.7352677903985
 30
0.0
 40
3.8006293402777769
  1
等価雑音レベル
 41
0.7
 11
36.826572039140487
 21
480.53589713067629
 31
0.0
 73
     3
  0
TEXT
  5
64
  8
SPEC
 62
     7
 10
36.799999999999983
 20
506.7376718821846
 30
0.0
 40
3.8006293402777769
  1
指向特性
 41
0.7
 11
36.799999999999983
 21
510.53830122246239
 31
0.0
 73
     3
  0
TEXT
  5
65
  8
SPEC
 62
     7
 10
36.880918163314533
 20
499.39950820881381
 30
0.0
 40
3.8006293402777769
  1
周波数特性
 41
0.7
 11
36.880918163314533
 21
503.20013754909161
 31
0.0
 73
     3
  0
TEXT
  5
66
  8
SPEC
 62
     7
 10
36.720597231708467
 20
454.19493970799272
 30
0.0
 40
3.8006293402777769
  1
インピーダンス
 41
0.7
 11
36.720597231708467
 21
457.99556904827051
 31
0.0
 73
     3
  0
TEXT
  5
67
  8
SPEC
 62
     7
 10
36.747231349295873
 20
446.8220892588414
 30
0.0
 40
3.8006293402777769
  1
電源
 41
0.7
 11
36.747231349295873
 21
450.6227185991192
 31
0.0
 73
     3
  0
TEXT
  5
68
  8
SPEC
 62
     7
 10
36.799999999999983
 20
424.43062383793762
 30
0.0
 40
3.8006293402777769
  1
質量
 41
0.7
 11
36.799999999999983
 21
428.23125317821541
 31
0.0
 73
     3
  0
TEXT
  5
69
  8
SPEC
 62
     7
 10
101.8883484190203
 20
484.25253239359603
 30
0.0
 40
3.8006293402777769
  1
135dB SPL(パッドOFF、THD 0.5%%%)
 41
0.7
 11
101.8883484190203
 21
488.05316173387382
 31
0.0
 73
     3
  0
TEXT
  5
6A
  8
SPEC
 62
     7
 10
102.15339367608119
 20
469.25253239359603
 30
0.0
 40
3.8006293402777769
  1
0/-10/-20
 41
0.7
 11
102.15339367608119
 21
473.05316173387388
 31
0.0
 73
     3
  0
TEXT
  5
6B
  8
SPEC
 62
     7
 10
102.0650452570609
 20
461.84088081261638
 30
0.0
 40
3.8006293402777769
  1
Flat/75Hz(12dB/oct)/150Hz(12dB/oct)
 41
0.7
 11
102.0650452570609
 21
465.64151015289423
 31
0.0
 73
     3
  0
TEXT
  5
6C
  8
SPEC
 62
     7
 10
101.99592336086231
 20
439.29480872357789
 30
0.0
 40
3.8006293402777769
  1
XLR 3ピン
 41
0.7
 11
101.99592336086231
 21
443.09543806385562
 31
0.0
 73
     3
  0
TEXT
  5
6D
  8
SPEC
 62
     7
 10
102.2417420951016
 20
491.75253239359608
 30
0.0
 40
3.8006293402777769
  1
-41dBV re 1V/Pa
 41
0.7
 11
102.2417420951016
 21
495.55316173387382
 31
0.0
 73
     3
  0
TEXT
  5
6E
  8
SPEC
 62
     7
 10
101.8883484190203
 20
476.75253239359603
 30
0.0
 40
3.8006293402777769
  1
18dB SPL(パッドOFF、THD 0.5%%%)
 41
0.7
 11
101.8883484190203
 21
480.55316173387382
 31
0.0
 73
     3
  0
TEXT
  5
6F
  8
SPEC
 62
     7
 10
102.0652541185716
 20
499.34108967412709
 30
0.0
 40
3.8006293402777769
  1
20Hz～20kHz
 41
0.7
 11
102.0652541185716
 21
503.14171901440488
 31
0.0
 73
     3
  0
TEXT
  5
70
  8
SPEC
 62
     7
 10
101.53474588142829
 20
506.92950771365099
 30
0.0
 40
3.8006293402777769
  1
カーディオイド
 41
0.7
 11
101.53474588142829
 21
510.73013705392879
 31
0.0
 73
     3
  0
LINE
  5
71
  8
SPEC
  6
CONTINUOUS
 62
     7
 10
35.0
 20
437.5
 30
0.0
 11
330.0
 21
437.5
 31
0.0
  0
LINE
  5
72
  8
SPEC
  6
CONTINUOUS
 62
     7
 10
35.0
 20
422.49999999999989
 30
0.0
 11
330.0
 21
422.49999999999989
 31
0.0
  0
TEXT
  5
73
  8
SPEC
 62
     7
 10
36.760516926145783
 20
431.97066629409738
 30
0.0
 40
3.8006293402777769
  1
寸法
 41
0.7
 11
36.760516926145783
 21
435.77129563437518
 31
0.0
 73
     3
  0
TEXT
  5
74
  8
SPEC
 62
     7
 10
36.957683681058732
 20
417.03441692322298
 30
0.0
 40
3.8006293402777769
  1
付属品
 41
0.7
 11
36.957683681058732
 21
420.83504626350071
 31
0.0
 73
     3
  0
TEXT
  5
75
  8
SPEC
 62
     7
 10
101.4116468070992
 20
431.70528661985571
 30
0.0
 40
3.8006293402777769
  1
\U+03A619\U+00D7160mm
 41
0.7
 11
101.4116468070992
 21
435.50591596013351
 31
0.0
 73
     3
  0
LINE
  5
76
  8
SPEC
  6
CONTINUOUS
 62
     7
 10
330.0
 20
520.0
 30
0.0
 11
330.0
 21
415.0
 31
0.0
  0
LINE
  5
77
  8
SPEC
  6
CONTINUOUS
 62
     7
 10
35.0
 20
520.0
 30
0.0
 11
35.0
 21
415.0
 31
0.0
  0
TEXT
  5
78
  8
SPEC
 62
     7
 10
101.8
 20
416.95527607519182
 30
0.0
 40
3.8006293402777769
  1
マイクホルダー(SA 60)/ウインドスクリーン(W 90)/特性データ シート/キャリングソフトケース
 41
0.7
 11
101.8
 21
420.75590541546961
 31
0.0
 73
     3
  0
LINE
  5
79
  8
SPEC
  6
CONTINUOUS
 62
     7
 10
100.0
 20
520.0
 30
0.0
 11
100.0
 21
415.0
 31
0.0
  0
LINE
  5
7A
  8
SPEC
  6
CONTINUOUS
 62
     7
 10
35.0
 20
415.0
 30
0.0
 11
330.0
 21
415.0
 31
0.0
  0
TEXT
  5
7B
  8
DIMNSIONS
 62
     7
 10
159.99999999999989
 20
44.538980000000009
 30
0.0
 40
4.8865234375000002
  1
(単位：mm)
 41
0.7
 11
159.99999999999989
 21
49.425503437500019
 31
0.0
 73
     3
  0
LINE
  5
7C
  8
DIMNSIONS
  6
CONTINUOUS
 62
     7
 10
133.5
 20
137.5
 30
0.0
 11
96.0
 21
137.5
 31
0.0
  0
LINE
  5
7D
  8
DIMNSIONS
  6
CONTINUOUS
 62
     7
 10
133.5
 20
297.5
 30
0.0
 11
96.0
 21
297.5
 31
0.0
  0
LINE
  5
7E
  8
DIMNSIONS
  6
CONTINUOUS
 62
     7
 10
100.0
 20
137.5
 30
0.0
 11
100.0
 21
297.5
 31
0.0
  0
LINE
  5
7F
  8
DIMNSIONS
  6
CONTINUOUS
 62
     7
 10
100.0
 20
137.5
 30
0.0
 11
98.659920409699509
 21
142.50124511718741
 31
0.0
  0
LINE
  5
80
  8
DIMNSIONS
  6
CONTINUOUS
 62
     7
 10
100.0
 20
137.5
 30
0.0
 11
101.3400795903005
 21
142.50124511718741
 31
0.0
  0
LINE
  5
81
  8
DIMNSIONS
  6
CONTINUOUS
 62
     7
 10
100.0
 20
297.5
 30
0.0
 11
101.3400795903005
 21
292.49875488281248
 31
0.0
  0
LINE
  5
82
  8
DIMNSIONS
  6
CONTINUOUS
 62
     7
 10
100.0
 20
297.5
 30
0.0
 11
98.659920409699509
 21
292.49875488281248
 31
0.0
  0
TEXT
  5
83
  8
DIMNSIONS
 62
     7
 10
98.012222222222221
 20
212.20833333333329
 30
0.0
 40
5.4294704861111107
  1
160
 50
90.0
 41
0.7
 11
92.582751736111078
 21
212.20833333333329
 31
0.0
 73
     3
  0
LINE
  5
84
  8
DIMNSIONS
  6
CONTINUOUS
 62
     7
 10
133.5
 20
272.5
 30
0.0
 11
108.5
 21
272.5
 31
0.0
  0
LINE
  5
85
  8
DIMNSIONS
  6
CONTINUOUS
 62
     7
 10
133.5
 20
297.5
 30
0.0
 11
108.5
 21
297.5
 31
0.0
  0
LINE
  5
86
  8
DIMNSIONS
  6
CONTINUOUS
 62
     7
 10
112.5
 20
272.5
 30
0.0
 11
112.5
 21
297.5
 31
0.0
  0
LINE
  5
87
  8
DIMNSIONS
  6
CONTINUOUS
 62
     7
 10
112.5
 20
272.5
 30
0.0
 11
111.1599204096995
 21
277.50124511718752
 31
0.0
  0
LINE
  5
88
  8
DIMNSIONS
  6
CONTINUOUS
 62
     7
 10
112.5
 20
272.5
 30
0.0
 11
113.8400795903005
 21
277.50124511718752
 31
0.0
  0
LINE
  5
89
  8
DIMNSIONS
  6
CONTINUOUS
 62
     7
 10
112.5
 20
297.5
 30
0.0
 11
113.8400795903005
 21
292.49875488281248
 31
0.0
  0
LINE
  5
8A
  8
DIMNSIONS
  6
CONTINUOUS
 62
     7
 10
112.5
 20
297.5
 30
0.0
 11
111.1599204096995
 21
292.49875488281248
 31
0.0
  0
TEXT
  5
8B
  8
DIMNSIONS
 62
     7
 10
110.51222222222221
 20
281.47222222222217
 30
0.0
 40
5.4294704861111107
  1
25
 50
90.0
 41
0.7
 11
105.08275173611111
 21
281.47222222222217
 31
0.0
 73
     3
  0
LINE
  5
8C
  8
DIMNSIONS
  6
CONTINUOUS
 62
     7
 10
152.0059268541859
 20
358.07407557126771
 30
0.0
 11
162.5
 21
375.0
 31
0.0
  0
LINE
  5
8D
  8
DIMNSIONS
  6
CONTINUOUS
 62
     7
 10
152.0059268541859
 20
358.07407557126771
 30
0.0
 11
153.5197310416834
 21
363.02550596181601
 31
0.0
  0
LINE
  5
8E
  8
DIMNSIONS
  6
CONTINUOUS
 62
     7
 10
152.0059268541859
 20
358.07407557126771
 30
0.0
 11
155.79263493218821
 21
361.60523798080419
 31
0.0
  0
LINE
  5
8F
  8
DIMNSIONS
  6
CONTINUOUS
 62
     7
 10
162.5
 20
375.0
 30
0.0
 11
180.61111111111109
 21
375.0
 31
0.0
  0
TEXT
  5
90
  8
DIMNSIONS
 62
     7
 10
166.5
 20
376.98777777777769
 30
0.0
 40
5.4294704861111107
  1
\U+03C619
 41
0.7
 11
166.5
 21
382.41724826388878
 31
0.0
 73
     3
  0
LINE
  5
91
  8
DIMNSIONS
  6
CONTINUOUS
 62
     7
 10
152.0059268541859
 20
108.0740755712676
 30
0.0
 11
162.5
 21
125.0
 31
0.0
  0
LINE
  5
92
  8
DIMNSIONS
  6
CONTINUOUS
 62
     7
 10
152.0059268541859
 20
108.0740755712676
 30
0.0
 11
153.5197310416834
 21
113.02550596181599
 31
0.0
  0
LINE
  5
93
  8
DIMNSIONS
  6
CONTINUOUS
 62
     7
 10
152.0059268541859
 20
108.0740755712676
 30
0.0
 11
155.79263493218809
 21
111.60523798080411
 31
0.0
  0
LINE
  5
94
  8
DIMNSIONS
  6
CONTINUOUS
 62
     7
 10
162.5
 20
125.0
 30
0.0
 11
180.61111111111109
 21
125.0
 31
0.0
  0
TEXT
  5
95
  8
DIMNSIONS
 62
     7
 10
166.5
 20
126.98777777777769
 30
0.0
 40
5.4294704861111107
  1
\U+03C619
 41
0.7
 11
166.5
 21
132.41724826388881
 31
0.0
 73
     3
  0
TEXT
  5
96
  8
DATA
 62
     7
 10
300.0
 20
57.599185983501222
 30
0.0
 40
4.8865234375000002
  1
AKG
 41
0.7
 11
300.0
 21
62.485709421001218
 31
0.0
 73
     3
  0
TEXT
  5
97
  8
DATA
 62
     7
 10
40.0
 20
28.47600000000001
 30
0.0
 40
3.2576822916666659
  1
仕様および外観は予告なく変更されることがありますので、ご了承ください。
 41
0.7
 11
40.0
 21
31.733682291666671
 31
0.0
 73
     3
  0
TEXT
  5
98
  8
DATA
 62
     7
 10
299.83251880329982
 20
41.995406430444753
 30
0.0
 40
4.8865234375000002
  1
C451B
 41
0.7
 11
299.83251880329982
 21
46.881929867944748
 31
0.0
 73
     3
  0
TEXT
  5
99
  8
DATA
 62
     7
 10
294.02443590100711
 20
49.749159500000061
 30
0.0
 40
4.0721092773437491
  1
コンデンサー型 
 41
0.7
 11
294.02443590100711
 21
53.821268777343818
 31
0.0
 73
     3
  0
LINE
  5
9A
  8
DATA
  6
CONTINUOUS
 62
     7
 10
137.5
 20
137.5
 30
0.0
 11
137.5
 21
297.5
 31
0.0
  0
LINE
  5
9B
  8
DATA
  6
CONTINUOUS
 62
     7
 10
156.5
 20
137.5
 30
0.0
 11
137.5
 21
137.5
 31
0.0
  0
LINE
  5
9C
  8
DATA
  6
CONTINUOUS
 62
     7
 10
156.5
 20
297.5
 30
0.0
 11
156.5
 21
137.5
 31
0.0
  0
LINE
  5
9D
  8
DATA
  6
CONTINUOUS
 62
     7
 10
137.5
 20
297.5
 30
0.0
 11
139.50317528125231
 21
297.5
 31
0.0
  0
LINE
  5
9E
  8
DATA
  6
CONTINUOUS
 62
     7
 10
140.50317528125231
 20
297.5
 30
0.0
 11
141.50317528125231
 21
297.5
 31
0.0
  0
LINE
  5
9F
  8
DATA
  6
CONTINUOUS
 62
     7
 10
142.50317528125231
 20
297.5
 30
0.0
 11
143.50317528125231
 21
297.5
 31
0.0
  0
LINE
  5
A0
  8
DATA
  6
CONTINUOUS
 62
     7
 10
144.50317528125231
 20
297.5
 30
0.0
 11
145.50317528125231
 21
297.5
 31
0.0
  0
LINE
  5
A1
  8
DATA
  6
CONTINUOUS
 62
     7
 10
146.50317528125231
 20
297.5
 30
0.0
 11
147.5031752812522
 21
297.5
 31
0.0
  0
LINE
  5
A2
  8
DATA
  6
CONTINUOUS
 62
     7
 10
148.5031752812522
 20
297.5
 30
0.0
 11
149.5031752812522
 21
297.5
 31
0.0
  0
LINE
  5
A3
  8
DATA
  6
CONTINUOUS
 62
     7
 10
150.50317528125231
 20
297.5
 30
0.0
 11
151.50317528125231
 21
297.5
 31
0.0
  0
LINE
  5
A4
  8
DATA
  6
CONTINUOUS
 62
     7
 10
152.5031752812522
 20
297.5
 30
0.0
 11
153.50317528125231
 21
297.5
 31
0.0
  0
LINE
  5
A5
  8
DATA
  6
CONTINUOUS
 62
     7
 10
154.50317528125231
 20
297.5
 30
0.0
 11
156.5
 21
297.5
 31
0.0
  0
CIRCLE
  5
A6
  8
DATA
  6
CONTINUOUS
 62
     7
 10
147.0
 20
100.0
 30
0.0
 40
9.5
  0
CIRCLE
  5
A7
  8
DATA
  6
CONTINUOUS
 62
     7
 10
147.0
 20
154.5
 30
0.0
 40
2.350000000000001
  0
LINE
  5
A8
  8
DATA
  6
CONTINUOUS
 62
     7
 10
145.5
 20
154.5
 30
0.0
 11
148.5
 21
154.5
 31
0.0
  0
LINE
  5
A9
  8
DATA
  6
CONTINUOUS
 62
     7
 10
147.0
 20
153.0
 30
0.0
 11
147.0
 21
156.0
 31
0.0
  0
LINE
  5
AA
  8
DATA
  6
CONTINUOUS
 62
     7
 10
145.55000000000001
 20
204.16779468789599
 30
0.0
 11
145.55000000000001
 21
210.84999999999999
 31
0.0
  0
LINE
  5
AB
  8
DATA
  6
CONTINUOUS
 62
     7
 10
148.44999999999999
 20
210.84999999999999
 30
0.0
 11
148.44999999999999
 21
204.16779468789599
 31
0.0
  0
ARC
  5
AC
  8
DATA
  6
CONTINUOUS
 62
     7
 10
147.0
 20
210.84999999999999
 30
0.0
 40
1.450000000000002
 50
0.0
 51
180.0
  0
ARC
  5
AD
  8
DATA
  6
CONTINUOUS
 62
     7
 10
147.0
 20
204.16779468789599
 30
0.0
 40
1.450000000000002
 50
180.0
 51
0.0
  0
LINE
  5
AE
  8
DATA
  6
CONTINUOUS
 62
     7
 10
144.55000000000001
 20
210.20719665402609
 30
0.0
 11
140.75
 21
210.20719665402609
 31
0.0
  0
LINE
  5
AF
  8
DATA
  6
CONTINUOUS
 62
     7
 10
144.55000000000001
 20
207.3954793020325
 30
0.0
 11
142.22
 21
207.3954793020325
 31
0.0
  0
LINE
  5
B0
  8
DATA
  6
CONTINUOUS
 62
     7
 10
142.22
 20
207.3954793020325
 30
0.0
 11
140.75
 21
206.3354793020325
 31
0.0
  0
LINE
  5
B1
  8
DATA
  6
CONTINUOUS
 62
     7
 10
144.55000000000001
 20
204.64453481252599
 30
0.0
 11
142.22
 21
204.64453481252599
 31
0.0
  0
LINE
  5
B2
  8
DATA
  6
CONTINUOUS
 62
     7
 10
142.22
 20
204.64453481252599
 30
0.0
 11
140.75
 21
203.58453481252599
 31
0.0
  0
TEXT
  5
B3
  8
DATA
 62
     7
 10
149.34661593631211
 20
204.20850624515151
 30
0.0
 40
1.085894097222222
  1
150 Hz
 41
0.7
 11
149.34661593631211
 21
205.29440034237371
 31
0.0
 73
     3
  0
TEXT
  5
B4
  8
DATA
 62
     7
 10
150.0
 20
206.99420117072839
 30
0.0
 40
1.085894097222222
  1
75 Hz
 41
0.7
 11
150.0
 21
208.08009526795061
 31
0.0
 73
     3
  0
TEXT
  5
B5
  8
DATA
 62
     7
 10
151.09147154924409
 20
209.93888314593019
 30
0.0
 40
1.1944835069444439
  1
lin
 41
0.7
 11
151.09147154924409
 21
211.1333666528746
 31
0.0
 73
     3
  0
POLYLINE
  5
B6
  8
DATA
  6
CONTINUOUS
 62
     7
 66
     1
 10
0.0
 20
0.0
 30
0.0
 70
     1
  0
VERTEX
  5
1D2
  8
DATA
  6
CONTINUOUS
 62
     7
 10
146.0
 20
211.0563959660301
 30
0.0
  0
VERTEX
  5
1D3
  8
DATA
  6
CONTINUOUS
 62
     7
 10
148.0
 20
211.0563959660301
 30
0.0
  0
VERTEX
  5
1D4
  8
DATA
  6
CONTINUOUS
 62
     7
 10
148.0
 20
209.5563959660301
 30
0.0
  0
VERTEX
  5
1D5
  8
DATA
  6
CONTINUOUS
 62
     7
 10
146.0
 20
209.5563959660301
 30
0.0
  0
SEQEND
  5
1D6
  8
DATA
  6
CONTINUOUS
 62
     7
  0
LINE
  5
BD
  8
DATA
  6
CONTINUOUS
 62
     7
 10
146.0
 20
210.3063959660301
 30
0.0
 11
148.0
 21
210.3063959660301
 31
0.0
  0
LINE
  5
BE
  8
DATA
  6
CONTINUOUS
 62
     7
 10
145.55000000000001
 20
229.467794687896
 30
0.0
 11
145.55000000000001
 21
236.15000000000001
 31
0.0
  0
LINE
  5
BF
  8
DATA
  6
CONTINUOUS
 62
     7
 10
148.44999999999999
 20
236.15000000000001
 30
0.0
 11
148.44999999999999
 21
229.467794687896
 31
0.0
  0
ARC
  5
C0
  8
DATA
  6
CONTINUOUS
 62
     7
 10
147.0
 20
236.15000000000001
 30
0.0
 40
1.450000000000002
 50
0.0
 51
180.0
  0
ARC
  5
C1
  8
DATA
  6
CONTINUOUS
 62
     7
 10
147.0
 20
229.467794687896
 30
0.0
 40
1.450000000000002
 50
180.0
 51
0.0
  0
TEXT
  5
C2
  8
DATA
 62
     7
 10
149.60804938175511
 20
232.2396599402629
 30
0.0
 40
1.1944835069444439
  1
dB
 41
0.7
 11
149.60804938175511
 21
233.43414344720739
 31
0.0
 73
     3
  0
POLYLINE
  5
C3
  8
DATA
  6
CONTINUOUS
 62
     7
 66
     1
 10
0.0
 20
0.0
 30
0.0
 70
     1
  0
VERTEX
  5
1D7
  8
DATA
  6
CONTINUOUS
 62
     7
 10
146.0
 20
236.35639596603011
 30
0.0
  0
VERTEX
  5
1D8
  8
DATA
  6
CONTINUOUS
 62
     7
 10
148.0
 20
236.35639596603011
 30
0.0
  0
VERTEX
  5
1D9
  8
DATA
  6
CONTINUOUS
 62
     7
 10
148.0
 20
234.85639596603011
 30
0.0
  0
VERTEX
  5
1DA
  8
DATA
  6
CONTINUOUS
 62
     7
 10
146.0
 20
234.85639596603011
 30
0.0
  0
SEQEND
  5
1DB
  8
DATA
  6
CONTINUOUS
 62
     7
  0
LINE
  5
CA
  8
DATA
  6
CONTINUOUS
 62
     7
 10
146.0
 20
235.60639596603011
 30
0.0
 11
148.0
 21
235.60639596603011
 31
0.0
  0
TEXT
  5
CB
  8
DATA
 62
     7
 10
142.3042913597877
 20
232.2396599402629
 30
0.0
 40
1.1944835069444439
  1
-10
 41
0.7
 11
142.3042913597877
 21
233.43414344720739
 31
0.0
 73
     3
  0
TEXT
  5
CC
  8
DATA
 62
     7
 10
142.3042913597877
 20
229.14705243432499
 30
0.0
 40
1.1944835069444439
  1
-20
 41
0.7
 11
142.3042913597877
 21
230.3415359412694
 31
0.0
 73
     3
  0
TEXT
  5
CD
  8
DATA
 62
     7
 10
143.9081940064149
 20
235.18293189845599
 30
0.0
 40
1.1944835069444439
  1
0
 41
0.7
 11
143.9081940064149
 21
236.3774154054004
 31
0.0
 73
     3
  0
LINE
  5
CE
  8
DATA
  6
CONTINUOUS
 62
     7
 10
137.5
 20
272.5
 30
0.0
 11
156.5
 21
272.5
 31
0.0
  0
CIRCLE
  5
CF
  8
DATA
  6
CONTINUOUS
 62
     7
 10
140.0
 20
275.5
 30
0.0
 40
1.0
  0
LINE
  5
D0
  8
DATA
  6
CONTINUOUS
 62
     7
 10
139.4803847577293
 20
275.5
 30
0.0
 11
140.5196152422707
 21
275.5
 31
0.0
  0
LINE
  5
D1
  8
DATA
  6
CONTINUOUS
 62
     7
 10
140.0
 20
274.98038475772933
 30
0.0
 11
140.0
 21
276.01961524227067
 31
0.0
  0
CIRCLE
  5
D2
  8
DATA
  6
CONTINUOUS
 62
     7
 10
154.0
 20
275.5
 30
0.0
 40
1.0
  0
LINE
  5
D3
  8
DATA
  6
CONTINUOUS
 62
     7
 10
153.4803847577293
 20
275.5
 30
0.0
 11
154.51961524227059
 21
275.5
 31
0.0
  0
LINE
  5
D4
  8
DATA
  6
CONTINUOUS
 62
     7
 10
154.0
 20
274.98038475772933
 30
0.0
 11
154.0
 21
276.01961524227067
 31
0.0
  0
LINE
  5
D5
  8
DATA
  6
CONTINUOUS
 62
     7
 10
142.15000000000001
 20
278.10000000000002
 30
0.0
 11
151.84999999999999
 21
278.10000000000002
 31
0.0
  0
LINE
  5
D6
  8
DATA
  6
CONTINUOUS
 62
     7
 10
142.15000000000001
 20
280.0
 30
0.0
 11
151.84999999999999
 21
280.0
 31
0.0
  0
LINE
  5
D7
  8
DATA
  6
CONTINUOUS
 62
     7
 10
142.15000000000001
 20
278.10000000000002
 30
0.0
 11
142.15000000000001
 21
280.0
 31
0.0
  0
LINE
  5
D8
  8
DATA
  6
CONTINUOUS
 62
     7
 10
151.84999999999999
 20
280.0
 30
0.0
 11
151.84999999999999
 21
278.10000000000002
 31
0.0
  0
LINE
  5
D9
  8
DATA
  6
CONTINUOUS
 62
     7
 10
142.15000000000001
 20
282.10000000000002
 30
0.0
 11
151.84999999999999
 21
282.10000000000002
 31
0.0
  0
LINE
  5
DA
  8
DATA
  6
CONTINUOUS
 62
     7
 10
142.15000000000001
 20
284.0
 30
0.0
 11
151.84999999999999
 21
284.0
 31
0.0
  0
LINE
  5
DB
  8
DATA
  6
CONTINUOUS
 62
     7
 10
142.15000000000001
 20
282.10000000000002
 30
0.0
 11
142.15000000000001
 21
284.0
 31
0.0
  0
LINE
  5
DC
  8
DATA
  6
CONTINUOUS
 62
     7
 10
151.84999999999999
 20
284.0
 30
0.0
 11
151.84999999999999
 21
282.10000000000002
 31
0.0
  0
LINE
  5
DD
  8
DATA
  6
CONTINUOUS
 62
     7
 10
142.15000000000001
 20
286.10000000000002
 30
0.0
 11
151.84999999999999
 21
286.10000000000002
 31
0.0
  0
LINE
  5
DE
  8
DATA
  6
CONTINUOUS
 62
     7
 10
142.15000000000001
 20
288.0
 30
0.0
 11
151.84999999999999
 21
288.0
 31
0.0
  0
LINE
  5
DF
  8
DATA
  6
CONTINUOUS
 62
     7
 10
142.15000000000001
 20
286.10000000000002
 30
0.0
 11
142.15000000000001
 21
288.0
 31
0.0
  0
LINE
  5
E0
  8
DATA
  6
CONTINUOUS
 62
     7
 10
151.84999999999999
 20
288.0
 30
0.0
 11
151.84999999999999
 21
286.10000000000002
 31
0.0
  0
LINE
  5
E1
  8
DATA
  6
CONTINUOUS
 62
     7
 10
139.50317528125231
 20
296.0
 30
0.0
 11
140.50317528125231
 21
296.0
 31
0.0
  0
LINE
  5
E2
  8
DATA
  6
CONTINUOUS
 62
     7
 10
141.50317528125231
 20
296.0
 30
0.0
 11
142.50317528125231
 21
296.0
 31
0.0
  0
LINE
  5
E3
  8
DATA
  6
CONTINUOUS
 62
     7
 10
143.50317528125231
 20
296.0
 30
0.0
 11
144.50317528125231
 21
296.0
 31
0.0
  0
LINE
  5
E4
  8
DATA
  6
CONTINUOUS
 62
     7
 10
145.50317528125231
 20
296.0
 30
0.0
 11
146.50317528125231
 21
296.0
 31
0.0
  0
LINE
  5
E5
  8
DATA
  6
CONTINUOUS
 62
     7
 10
147.5031752812522
 20
296.0
 30
0.0
 11
148.5031752812522
 21
296.0
 31
0.0
  0
LINE
  5
E6
  8
DATA
  6
CONTINUOUS
 62
     7
 10
149.5031752812522
 20
296.0
 30
0.0
 11
150.50317528125231
 21
296.0
 31
0.0
  0
LINE
  5
E7
  8
DATA
  6
CONTINUOUS
 62
     7
 10
151.50317528125231
 20
296.0
 30
0.0
 11
152.5031752812522
 21
296.0
 31
0.0
  0
LINE
  5
E8
  8
DATA
  6
CONTINUOUS
 62
     7
 10
153.50317528125231
 20
296.0
 30
0.0
 11
154.50317528125231
 21
296.0
 31
0.0
  0
LINE
  5
E9
  8
DATA
  6
CONTINUOUS
 62
     7
 10
139.50317528125231
 20
297.5
 30
0.0
 11
139.50317528125231
 21
296.0
 31
0.0
  0
LINE
  5
EA
  8
DATA
  6
CONTINUOUS
 62
     7
 10
140.50317528125231
 20
297.5
 30
0.0
 11
140.50317528125231
 21
296.0
 31
0.0
  0
LINE
  5
EB
  8
DATA
  6
CONTINUOUS
 62
     7
 10
141.50317528125231
 20
297.5
 30
0.0
 11
141.50317528125231
 21
296.0
 31
0.0
  0
LINE
  5
EC
  8
DATA
  6
CONTINUOUS
 62
     7
 10
142.50317528125231
 20
297.5
 30
0.0
 11
142.50317528125231
 21
296.0
 31
0.0
  0
LINE
  5
ED
  8
DATA
  6
CONTINUOUS
 62
     7
 10
143.50317528125231
 20
297.5
 30
0.0
 11
143.50317528125231
 21
296.0
 31
0.0
  0
LINE
  5
EE
  8
DATA
  6
CONTINUOUS
 62
     7
 10
144.50317528125231
 20
297.5
 30
0.0
 11
144.50317528125231
 21
296.0
 31
0.0
  0
LINE
  5
EF
  8
DATA
  6
CONTINUOUS
 62
     7
 10
145.50317528125231
 20
297.5
 30
0.0
 11
145.50317528125231
 21
296.0
 31
0.0
  0
LINE
  5
F0
  8
DATA
  6
CONTINUOUS
 62
     7
 10
146.50317528125231
 20
297.5
 30
0.0
 11
146.50317528125231
 21
296.0
 31
0.0
  0
LINE
  5
F1
  8
DATA
  6
CONTINUOUS
 62
     7
 10
147.5031752812522
 20
297.5
 30
0.0
 11
147.5031752812522
 21
296.0
 31
0.0
  0
LINE
  5
F2
  8
DATA
  6
CONTINUOUS
 62
     7
 10
148.5031752812522
 20
297.5
 30
0.0
 11
148.5031752812522
 21
296.0
 31
0.0
  0
LINE
  5
F3
  8
DATA
  6
CONTINUOUS
 62
     7
 10
149.5031752812522
 20
297.5
 30
0.0
 11
149.5031752812522
 21
296.0
 31
0.0
  0
LINE
  5
F4
  8
DATA
  6
CONTINUOUS
 62
     7
 10
150.50317528125231
 20
297.5
 30
0.0
 11
150.50317528125231
 21
296.0
 31
0.0
  0
LINE
  5
F5
  8
DATA
  6
CONTINUOUS
 62
     7
 10
151.50317528125231
 20
297.5
 30
0.0
 11
151.50317528125231
 21
296.0
 31
0.0
  0
LINE
  5
F6
  8
DATA
  6
CONTINUOUS
 62
     7
 10
152.5031752812522
 20
297.5
 30
0.0
 11
152.5031752812522
 21
296.0
 31
0.0
  0
LINE
  5
F7
  8
DATA
  6
CONTINUOUS
 62
     7
 10
153.50317528125231
 20
297.5
 30
0.0
 11
153.50317528125231
 21
296.0
 31
0.0
  0
LINE
  5
F8
  8
DATA
  6
CONTINUOUS
 62
     7
 10
154.50317528125231
 20
297.5
 30
0.0
 11
154.50317528125231
 21
296.0
 31
0.0
  0
TEXT
  5
F9
  8
DATA
 62
     7
 10
141.40000000000001
 20
246.56910978273029
 30
0.0
 40
3.2576822916666659
  1
C451B
 41
0.7
 11
141.40000000000001
 21
249.82679207439699
 31
0.0
 73
     3
  0
CIRCLE
  5
FA
  8
DATA
  6
CONTINUOUS
 62
     7
 10
147.0
 20
100.0
 30
0.0
 40
8.0
  0
LINE
  5
FB
  8
DATA
  6
STYLE_01
 62
     7
 10
134.5
 20
258.5
 30
0.0
 11
159.5
 21
258.5
 31
0.0
  0
LINE
  5
FC
  8
DATA
  6
STYLE_01
 62
     7
 10
124.0
 20
291.5
 30
0.0
 11
124.0
 21
302.5
 31
0.0
  0
LINE
  5
FD
  8
DATA
  6
STYLE_01
 62
     7
 10
170.0
 20
302.5
 30
0.0
 11
170.0
 21
291.5
 31
0.0
  0
ARC
  5
FE
  8
DATA
  6
STYLE_01
 62
     7
 10
147.0
 20
299.27499999999998
 30
0.0
 40
23.225000000000001
 50
7.9818261968595463
 51
172.01817380314051
  0
ARC
  5
FF
  8
DATA
  6
STYLE_01
 62
     7
 10
194.20563909774501
 20
296.51842105263171
 30
0.0
 40
70.78250969982183
 50
187.31996917003619
 51
212.48752990457939
  0
ARC
  5
100
  8
DATA
  6
STYLE_01
 62
     7
 10
99.794360902255036
 20
296.51842105263171
 30
0.0
 40
70.782509699821816
 50
327.51247009542061
 51
352.68003082996381
  0
ARC
  5
101
  8
DATA
  6
STYLE_01
 62
     7
 10
123.4846774193549
 20
289.5
 30
0.0
 40
2.0653225806451401
 50
284.44863138809001
 51
75.551368611910121
  0
ARC
  5
102
  8
DATA
  6
STYLE_01
 62
     7
 10
170.51532258064509
 20
289.5
 30
0.0
 40
2.065322580645168
 50
104.44863138808979
 51
255.55136861190999
  0
LINE
  5
103
  8
DATA
  6
STYLE_01
 62
     7
 10
124.0
 20
291.5
 30
0.0
 11
170.0
 21
291.5
 31
0.0
  0
LINE
  5
104
  8
DATA
  6
STYLE_01
 62
     7
 10
124.0
 20
287.5
 30
0.0
 11
170.0
 21
287.5
 31
0.0
  0
CIRCLE
  5
105
  8
DATA
  6
CONTINUOUS
 62
     7
 10
147.0
 20
350.0
 30
0.0
 40
9.5
  0
LINE
  5
106
  8
DATA
  6
CONTINUOUS
 62
     7
 10
139.50317528125231
 20
344.16496622662959
 30
0.0
 11
139.50317528125231
 21
355.83503377337041
 31
0.0
  0
LINE
  5
107
  8
DATA
  6
CONTINUOUS
 62
     7
 10
140.50317528125231
 20
343.0688191068283
 30
0.0
 11
140.50317528125231
 21
356.9311808931717
 31
0.0
  0
LINE
  5
108
  8
DATA
  6
CONTINUOUS
 62
     7
 10
141.50317528125231
 20
342.25177968747892
 30
0.0
 11
141.50317528125231
 21
357.74822031252108
 31
0.0
  0
LINE
  5
109
  8
DATA
  6
CONTINUOUS
 62
     7
 10
142.50317528125231
 20
341.63169267719809
 30
0.0
 11
142.50317528125231
 21
358.36830732280202
 31
0.0
  0
LINE
  5
10A
  8
DATA
  6
CONTINUOUS
 62
     7
 10
143.50317528125231
 20
341.16698143971411
 30
0.0
 11
143.50317528125231
 21
358.83301856028589
 31
0.0
  0
LINE
  5
10B
  8
DATA
  6
CONTINUOUS
 62
     7
 10
144.50317528125231
 20
340.83398307202901
 30
0.0
 11
144.50317528125231
 21
359.16601692797099
 31
0.0
  0
LINE
  5
10C
  8
DATA
  6
CONTINUOUS
 62
     7
 10
145.50317528125231
 20
340.61866130227958
 30
0.0
 11
145.50317528125231
 21
359.38133869772031
 31
0.0
  0
LINE
  5
10D
  8
DATA
  6
CONTINUOUS
 62
     7
 10
146.50317528125231
 20
340.51300020033511
 30
0.0
 11
146.50317528125231
 21
359.48699979966477
 31
0.0
  0
LINE
  5
10E
  8
DATA
  6
CONTINUOUS
 62
     7
 10
147.5031752812522
 20
340.51333490438623
 30
0.0
 11
147.5031752812522
 21
359.48666509561372
 31
0.0
  0
LINE
  5
10F
  8
DATA
  6
CONTINUOUS
 62
     7
 10
148.5031752812522
 20
340.61967676069571
 30
0.0
 11
148.5031752812522
 21
359.38032323930429
 31
0.0
  0
LINE
  5
110
  8
DATA
  6
CONTINUOUS
 62
     7
 10
149.5031752812522
 20
340.83571533008018
 30
0.0
 11
149.5031752812522
 21
359.16428466991982
 31
0.0
  0
LINE
  5
111
  8
DATA
  6
CONTINUOUS
 62
     7
 10
150.50317528125231
 20
341.16949814852961
 30
0.0
 11
150.50317528125231
 21
358.83050185147039
 31
0.0
  0
LINE
  5
112
  8
DATA
  6
CONTINUOUS
 62
     7
 10
151.50317528125231
 20
341.63510834581109
 30
0.0
 11
151.50317528125231
 21
358.36489165418891
 31
0.0
  0
LINE
  5
113
  8
DATA
  6
CONTINUOUS
 62
     7
 10
152.5031752812522
 20
342.25628888556571
 30
0.0
 11
152.5031752812522
 21
357.7437111144344
 31
0.0
  0
LINE
  5
114
  8
DATA
  6
CONTINUOUS
 62
     7
 10
153.50317528125231
 20
343.07477716883369
 30
0.0
 11
153.50317528125231
 21
356.92522283116642
 31
0.0
  0
LINE
  5
115
  8
DATA
  6
CONTINUOUS
 62
     7
 10
154.50317528125231
 20
344.1731345734774
 30
0.0
 11
154.50317528125231
 21
355.8268654265226
 31
0.0
  0
ARC
  5
116
  8
DATA
  6
CONTINUOUS
 62
     7
 10
147.0
 20
350.0
 30
0.0
 40
7.3500000000000174
 50
152.1191197710985
 51
207.88088022890111
  0
ARC
  5
117
  8
DATA
  6
CONTINUOUS
 62
     7
 10
147.0
 20
350.0
 30
0.0
 40
7.3500000000000112
 50
221.5940262305038
 51
232.2792977617523
  0
ARC
  5
118
  8
DATA
  6
CONTINUOUS
 62
     7
 10
147.0
 20
350.0
 30
0.0
 40
7.3500000000000174
 50
241.59125489017089
 51
250.14115617566361
  0
ARC
  5
119
  8
DATA
  6
CONTINUOUS
 62
     7
 10
147.0
 20
350.0
 30
0.0
 40
7.3500000000000192
 50
258.24953940401701
 51
266.12412495381972
  0
ARC
  5
11A
  8
DATA
  6
CONTINUOUS
 62
     7
 10
147.0
 20
350.0
 30
0.0
 40
7.3500000000000192
 50
273.9254948139004
 51
281.8010297018572
  0
ARC
  5
11B
  8
DATA
  6
CONTINUOUS
 62
     7
 10
147.0
 20
350.0
 30
0.0
 40
7.3500000000000192
 50
289.91148745869168
 51
298.465042676807
  0
ARC
  5
11C
  8
DATA
  6
CONTINUOUS
 62
     7
 10
147.0
 20
350.0
 30
0.0
 40
7.3500000000000139
 50
307.78331361918862
 51
318.48060103820711
  0
ARC
  5
11D
  8
DATA
  6
CONTINUOUS
 62
     7
 10
147.0
 20
350.0
 30
0.0
 40
7.3500000000000139
 50
332.22516745970199
 51
27.774832540298071
  0
ARC
  5
11E
  8
DATA
  6
CONTINUOUS
 62
     7
 10
147.0
 20
350.0
 30
0.0
 40
7.3500000000000174
 50
41.519398961792952
 51
52.216686380811467
  0
ARC
  5
11F
  8
DATA
  6
CONTINUOUS
 62
     7
 10
147.0
 20
350.0
 30
0.0
 40
7.3500000000000174
 50
61.53495732319309
 51
70.088512541308305
  0
ARC
  5
120
  8
DATA
  6
CONTINUOUS
 62
     7
 10
147.0
 20
350.0
 30
0.0
 40
7.3500000000000121
 50
78.19897029814291
 51
86.074505186099657
  0
ARC
  5
121
  8
DATA
  6
CONTINUOUS
 62
     7
 10
147.0
 20
350.0
 30
0.0
 40
7.3500000000000121
 50
93.875875046180411
 51
101.750460595983
  0
ARC
  5
122
  8
DATA
  6
CONTINUOUS
 62
     7
 10
147.0
 20
350.0
 30
0.0
 40
7.3500000000000139
 50
109.8588438243364
 51
118.4087451098291
  0
ARC
  5
123
  8
DATA
  6
CONTINUOUS
 62
     7
 10
147.0
 20
350.0
 30
0.0
 40
7.3500000000000139
 50
127.7207022382477
 51
138.4059737694958
  0
TEXT
  5
124
  8
DATA
 62
     7
 10
180.8034499884742
 20
340.28570357252249
 30
0.0
 40
5.4294704861111107
  1
ウインドスクリーン
 41
0.7
 11
180.8034499884742
 21
345.71517405863358
 31
0.0
 73
     3
  0
LINE
  5
125
  8
DATA
  6
CONTINUOUS
 62
     7
 10
161.26867197744761
 20
317.60000000000002
 30
0.0
 11
175.0
 21
337.5
 31
0.0
  0
LINE
  5
126
  8
DATA
  6
CONTINUOUS
 62
     7
 10
161.26867197744761
 20
317.60000000000002
 30
0.0
 11
163.5171136807426
 21
323.77754280876297
 31
0.0
  0
LINE
  5
127
  8
DATA
  6
CONTINUOUS
 62
     7
 10
161.26867197744761
 20
317.60000000000002
 30
0.0
 11
166.304651015811
 21
321.82568815370718
 31
0.0
  0
LINE
  5
128
  8
DATA
  6
CONTINUOUS
 62
     7
 10
175.0
 20
337.5
 30
0.0
 11
250.0
 21
337.5
 31
0.0
  0
CIRCLE
  5
129
  8
DATA
  6
CONTINUOUS
 62
     7
 10
143.0
 20
100.1678123721998
 30
0.0
 40
1.150000000000005
  0
CIRCLE
  5
12A
  8
DATA
  6
CONTINUOUS
 62
     7
 10
151.0
 20
100.1678123721998
 30
0.0
 40
1.150000000000005
  0
CIRCLE
  5
12B
  8
DATA
  6
CONTINUOUS
 62
     7
 10
147.0
 20
96.167812372199847
 30
0.0
 40
1.150000000000005
  0
ENDSEC
  0
EOF
